ISO-10303-21;
HEADER;
FILE_DESCRIPTION (( 'STEP AP203' ),
    '1' );
FILE_NAME ('QB-CTZHWP-12.7-795-M.STEP',
    '2020-12-24T01:35:09',
    ( '' ),
    ( '' ),
    'SwSTEP 2.0',
    'SolidWorks 2020',
    '' );
FILE_SCHEMA (( 'CONFIG_CONTROL_DESIGN' ));
ENDSEC;

DATA;
#1 = CYLINDRICAL_SURFACE ( 'NONE', #64, 6.349999999999999645 ) ;
#2 = DIRECTION ( 'NONE',  ( 0.000000000000000000, 0.000000000000000000, 1.000000000000000000 ) ) ;
#3 = VERTEX_POINT ( 'NONE', #210 ) ;
#4 = CIRCLE ( 'NONE', #162, 6.349999999999999645 ) ;
#5 = EDGE_LOOP ( 'NONE', ( #69, #92 ) ) ;
#6 = DIRECTION ( 'NONE',  ( 0.000000000000000000, 0.000000000000000000, -1.000000000000000000 ) ) ;
#7 = EDGE_CURVE ( 'NONE', #97, #44, #52, .T. ) ;
#8 = DIRECTION ( 'NONE',  ( -1.000000000000000000, -0.000000000000000000, -0.000000000000000000 ) ) ;
#9 = CYLINDRICAL_SURFACE ( 'NONE', #318, 6.349999999999999645 ) ;
#10 = DIRECTION ( 'NONE',  ( 1.000000000000000000, 0.000000000000000000, 0.000000000000000000 ) ) ;
#11 = CIRCLE ( 'NONE', #205, 6.349999999999999645 ) ;
#12 = PERSON_AND_ORGANIZATION_ROLE ( 'design_supplier' ) ;
#13 = EDGE_LOOP ( 'NONE', ( #67, #100 ) ) ;
#14 = ADVANCED_BREP_SHAPE_REPRESENTATION ( 'QB-CTZHWP-12.7-795-M', ( #153, #258 ), #109 ) ;
#15 = PERSON_AND_ORGANIZATION_ROLE ( 'creator' ) ;
#16 = AXIS2_PLACEMENT_3D ( 'NONE', #78, #187, #135 ) ;
#17 = VERTEX_POINT ( 'NONE', #284 ) ;
#18 = PERSON_AND_ORGANIZATION ( #325, #132 ) ;
#19 = AXIS2_PLACEMENT_3D ( 'NONE', #195, #143, #113 ) ;
#20 = PERSON_AND_ORGANIZATION ( #325, #132 ) ;
#21 = VERTEX_POINT ( 'NONE', #26 ) ;
#22 = DIRECTION ( 'NONE',  ( 0.000000000000000000, 0.000000000000000000, 1.000000000000000000 ) ) ;
#23 = ADVANCED_FACE ( 'NONE', ( #257, #278 ), #83, .F. ) ;
#24 = AXIS2_PLACEMENT_3D ( 'NONE', #164, #139, #110 ) ;
#25 = ORIENTED_EDGE ( 'NONE', *, *, #131, .T. ) ;
#26 = CARTESIAN_POINT ( 'NONE',  ( 1.500000000000000888, 7.776507174585692163E-16, -6.349999999999999645 ) ) ;
#27 = DIRECTION ( 'NONE',  ( 0.000000000000000000, 0.000000000000000000, 1.000000000000000000 ) ) ;
#28 = CIRCLE ( 'NONE', #213, 6.349999999999999645 ) ;
#29 = ORIENTED_EDGE ( 'NONE', *, *, #283, .T. ) ;
#30 = DIRECTION ( 'NONE',  ( 0.000000000000000000, 0.000000000000000000, 1.000000000000000000 ) ) ;
#31 = DIRECTION ( 'NONE',  ( -1.000000000000000000, -0.000000000000000000, -0.000000000000000000 ) ) ;
#32 = CARTESIAN_POINT ( 'NONE',  ( 3.000000000000000000, 1.555301434917138433E-15, -12.69999999999999929 ) ) ;
#33 = CYLINDRICAL_SURFACE ( 'NONE', #19, 12.69999999999999929 ) ;
#34 = ADVANCED_FACE ( 'NONE', ( #160 ), #212, .T. ) ;
#35 = CARTESIAN_POINT ( 'NONE',  ( -1.614212418857619014, 0.000000000000000000, 12.69999999999999929 ) ) ;
#36 = DIRECTION ( 'NONE',  ( 0.000000000000000000, 0.000000000000000000, 1.000000000000000000 ) ) ;
#37 = CARTESIAN_POINT ( 'NONE',  ( -3.000000000000000000, 0.000000000000000000, 12.69999999999999929 ) ) ;
#38 = CC_DESIGN_DATE_AND_TIME_ASSIGNMENT ( #251, #74, ( #138 ) ) ;
#39 = EDGE_LOOP ( 'NONE', ( #41, #25, #46, #252 ) ) ;
#40 =( NAMED_UNIT ( * ) SI_UNIT ( $, .STERADIAN. ) SOLID_ANGLE_UNIT ( ) );
#41 = ORIENTED_EDGE ( 'NONE', *, *, #196, .F. ) ;
#42 = EDGE_LOOP ( 'NONE', ( #322, #214, #122, #324 ) ) ;
#43 = COORDINATED_UNIVERSAL_TIME_OFFSET ( 8, 0, .AHEAD. ) ;
#44 = VERTEX_POINT ( 'NONE', #163 ) ;
#45 = DIRECTION ( 'NONE',  ( -1.000000000000000000, -0.000000000000000000, -0.000000000000000000 ) ) ;
#46 = ORIENTED_EDGE ( 'NONE', *, *, #184, .T. ) ;
#47 = DATE_AND_TIME ( #276, #148 ) ;
#48 = PRODUCT_DEFINITION_SHAPE ( 'NONE', 'NONE',  #121 ) ;
#49 = DIRECTION ( 'NONE',  ( 0.000000000000000000, 0.000000000000000000, 1.000000000000000000 ) ) ;
#50 = APPROVAL_DATE_TIME ( #304, #313 ) ;
#51 = CARTESIAN_POINT ( 'NONE',  ( -3.000000000000000000, 1.555301434917138433E-15, -12.69999999999999929 ) ) ;
#52 = CIRCLE ( 'NONE', #171, 6.349999999999999645 ) ;
#53 = PLANE ( 'NONE',  #16 ) ;
#54 = AXIS2_PLACEMENT_3D ( 'NONE', #170, #10, #6 ) ;
#55 = ORIENTED_EDGE ( 'NONE', *, *, #194, .F. ) ;
#56 = EDGE_CURVE ( 'NONE', #228, #155, #90, .T. ) ;
#57 = DIRECTION ( 'NONE',  ( 0.000000000000000000, 0.000000000000000000, -1.000000000000000000 ) ) ;
#58 = CARTESIAN_POINT ( 'NONE',  ( -2.999999999999999556, 0.000000000000000000, 6.349999999999999645 ) ) ;
#59 = AXIS2_PLACEMENT_3D ( 'NONE', #167, #86, #242 ) ;
#60 = CARTESIAN_POINT ( 'NONE',  ( 1.500000000000000888, 0.000000000000000000, 0.000000000000000000 ) ) ;
#61 = VECTOR ( 'NONE', #191, 1000.000000000000000 ) ;
#62 = CARTESIAN_POINT ( 'NONE',  ( -1.500000000000000444, 0.000000000000000000, 6.349999999999999645 ) ) ;
#63 = DIRECTION ( 'NONE',  ( -1.000000000000000000, -0.000000000000000000, -0.000000000000000000 ) ) ;
#64 = AXIS2_PLACEMENT_3D ( 'NONE', #137, #261, #305 ) ;
#65 = FACE_OUTER_BOUND ( 'NONE', #39, .T. ) ;
#66 = DATE_TIME_ROLE ( 'creation_date' ) ;
#67 = ORIENTED_EDGE ( 'NONE', *, *, #283, .F. ) ;
#68 = CARTESIAN_POINT ( 'NONE',  ( 0.000000000000000000, 0.000000000000000000, 0.000000000000000000 ) ) ;
#69 = ORIENTED_EDGE ( 'NONE', *, *, #198, .F. ) ;
#70 = PERSON_AND_ORGANIZATION ( #325, #132 ) ;
#71 = VECTOR ( 'NONE', #315, 1000.000000000000000 ) ;
#72 = EDGE_LOOP ( 'NONE', ( #275, #269, #174, #94 ) ) ;
#73 = CC_DESIGN_PERSON_AND_ORGANIZATION_ASSIGNMENT ( #206, #15, ( #221 ) ) ;
#74 = DATE_TIME_ROLE ( 'classification_date' ) ;
#75 = LOCAL_TIME ( 9, 35, 9.000000000000000000, #321 ) ;
#76 = ORIENTED_EDGE ( 'NONE', *, *, #168, .T. ) ;
#77 = CARTESIAN_POINT ( 'NONE',  ( -1.500000000000000444, 0.000000000000000000, 0.000000000000000000 ) ) ;
#78 = CARTESIAN_POINT ( 'NONE',  ( 3.000000000000000000, 12.69999999999999929, 0.000000000000000000 ) ) ;
#79 = CARTESIAN_POINT ( 'NONE',  ( -1.614212418857619014, 0.000000000000000000, 0.000000000000000000 ) ) ;
#80 = ORIENTED_EDGE ( 'NONE', *, *, #216, .T. ) ;
#81 = EDGE_CURVE ( 'NONE', #44, #97, #123, .T. ) ;
#82 = PRODUCT ( 'QB-CTZHWP-12.7-795-M', 'QB-CTZHWP-12.7-795-M', '', ( #248 ) ) ;
#83 = PLANE ( 'NONE',  #241 ) ;
#84 = AXIS2_PLACEMENT_3D ( 'NONE', #222, #8, #85 ) ;
#85 = DIRECTION ( 'NONE',  ( 0.000000000000000000, 0.000000000000000000, 1.000000000000000000 ) ) ;
#86 = DIRECTION ( 'NONE',  ( -1.000000000000000000, -0.000000000000000000, -0.000000000000000000 ) ) ;
#87 = LINE ( 'NONE', #89, #114 ) ;
#88 = LINE ( 'NONE', #118, #306 ) ;
#89 = CARTESIAN_POINT ( 'NONE',  ( -1.614212418857619014, 7.776507174585692163E-16, -6.349999999999999645 ) ) ;
#90 = CIRCLE ( 'NONE', #203, 12.69999999999999929 ) ;
#91 = SECURITY_CLASSIFICATION_LEVEL ( 'unclassified' ) ;
#92 = ORIENTED_EDGE ( 'NONE', *, *, #168, .F. ) ;
#93 = APPLICATION_PROTOCOL_DEFINITION ( 'international standard', 'config_control_design', 1994, #104 ) ;
#94 = ORIENTED_EDGE ( 'NONE', *, *, #223, .T. ) ;
#95 = CALENDAR_DATE ( 2020, 24, 12 ) ;
#96 = EDGE_CURVE ( 'NONE', #230, #156, #98, .T. ) ;
#97 = VERTEX_POINT ( 'NONE', #237 ) ;
#98 = CIRCLE ( 'NONE', #24, 12.69999999999999929 ) ;
#99 = CALENDAR_DATE ( 2020, 24, 12 ) ;
#100 = ORIENTED_EDGE ( 'NONE', *, *, #56, .F. ) ;
#101 = DATE_AND_TIME ( #99, #186 ) ;
#102 = EDGE_LOOP ( 'NONE', ( #178, #330 ) ) ;
#103 = CC_DESIGN_PERSON_AND_ORGANIZATION_ASSIGNMENT ( #151, #299, ( #121 ) ) ;
#104 = APPLICATION_CONTEXT ( 'configuration controlled 3d designs of mechanical parts and assemblies' ) ;
#105 = COORDINATED_UNIVERSAL_TIME_OFFSET ( 8, 0, .AHEAD. ) ;
#106 = CARTESIAN_POINT ( 'NONE',  ( 3.000000000000000000, 0.000000000000000000, 0.000000000000000000 ) ) ;
#107 = AXIS2_PLACEMENT_3D ( 'NONE', #77, #183, #255 ) ;
#108 = CARTESIAN_POINT ( 'NONE',  ( 1.500000000000000444, 6.349999999999999645, 0.000000000000000000 ) ) ;
#109 =( GEOMETRIC_REPRESENTATION_CONTEXT ( 3 ) GLOBAL_UNCERTAINTY_ASSIGNED_CONTEXT ( ( #260 ) ) GLOBAL_UNIT_ASSIGNED_CONTEXT ( ( #328, #173, #40 ) ) REPRESENTATION_CONTEXT ( 'NONE', 'WORKASPACE' ) );
#110 = DIRECTION ( 'NONE',  ( 0.000000000000000000, 0.000000000000000000, 1.000000000000000000 ) ) ;
#111 = DIRECTION ( 'NONE',  ( -1.000000000000000000, -0.000000000000000000, -0.000000000000000000 ) ) ;
#112 = ADVANCED_FACE ( 'NONE', ( #235 ), #1, .F. ) ;
#113 = DIRECTION ( 'NONE',  ( 0.000000000000000000, 0.000000000000000000, 1.000000000000000000 ) ) ;
#114 = VECTOR ( 'NONE', #117, 1000.000000000000000 ) ;
#115 = CC_DESIGN_PERSON_AND_ORGANIZATION_ASSIGNMENT ( #70, #12, ( #221 ) ) ;
#116 = DIRECTION ( 'NONE',  ( 1.000000000000000000, 0.000000000000000000, 0.000000000000000000 ) ) ;
#117 = DIRECTION ( 'NONE',  ( -1.000000000000000000, -0.000000000000000000, -0.000000000000000000 ) ) ;
#118 = CARTESIAN_POINT ( 'NONE',  ( -1.614212418857619014, 7.776507174585692163E-16, -6.349999999999999645 ) ) ;
#119 = CC_DESIGN_APPROVAL ( #136, ( #221 ) ) ;
#120 = CARTESIAN_POINT ( 'NONE',  ( -2.999999999999999556, 7.776507174585692163E-16, -6.349999999999999645 ) ) ;
#121 = PRODUCT_DEFINITION ( 'UNKNOWN', '', #221, #126 ) ;
#122 = ORIENTED_EDGE ( 'NONE', *, *, #194, .T. ) ;
#123 = CIRCLE ( 'NONE', #292, 6.349999999999999645 ) ;
#124 = CIRCLE ( 'NONE', #54, 6.349999999999999645 ) ;
#125 = EDGE_LOOP ( 'NONE', ( #80, #327, #76, #303 ) ) ;
#126 = DESIGN_CONTEXT ( 'detailed design', #334, 'design' ) ;
#127 = APPROVAL_ROLE ( '' ) ;
#128 = EDGE_LOOP ( 'NONE', ( #225, #175 ) ) ;
#129 = CARTESIAN_POINT ( 'NONE',  ( 1.500000000000000888, 0.000000000000000000, 0.000000000000000000 ) ) ;
#130 = ORIENTED_EDGE ( 'NONE', *, *, #131, .F. ) ;
#131 = EDGE_CURVE ( 'NONE', #17, #298, #277, .T. ) ;
#132 = ORGANIZATION ( 'UNSPECIFIED', 'UNSPECIFIED', '' ) ;
#133 = DIRECTION ( 'NONE',  ( -1.000000000000000000, -0.000000000000000000, -0.000000000000000000 ) ) ;
#134 = APPROVAL_ROLE ( '' ) ;
#135 = DIRECTION ( 'NONE',  ( -0.000000000000000000, 0.000000000000000000, 1.000000000000000000 ) ) ;
#136 = APPROVAL ( #229, 'UNSPECIFIED' ) ;
#137 = CARTESIAN_POINT ( 'NONE',  ( -1.614212418857619014, 0.000000000000000000, 0.000000000000000000 ) ) ;
#138 = SECURITY_CLASSIFICATION ( '', '', #91 ) ;
#139 = DIRECTION ( 'NONE',  ( -1.000000000000000000, -0.000000000000000000, -0.000000000000000000 ) ) ;
#140 = CARTESIAN_POINT ( 'NONE',  ( 3.000000000000000888, 0.000000000000000000, 0.000000000000000000 ) ) ;
#141 = PRODUCT_RELATED_PRODUCT_CATEGORY ( 'detail', '', ( #82 ) ) ;
#142 = CARTESIAN_POINT ( 'NONE',  ( -3.000000000000000000, 0.000000000000000000, 0.000000000000000000 ) ) ;
#143 = DIRECTION ( 'NONE',  ( -1.000000000000000000, -0.000000000000000000, -0.000000000000000000 ) ) ;
#144 = CARTESIAN_POINT ( 'NONE',  ( -1.614212418857619014, 1.555301434917138433E-15, -12.69999999999999929 ) ) ;
#145 = AXIS2_PLACEMENT_3D ( 'NONE', #60, #266, #217 ) ;
#146 = PLANE ( 'NONE',  #209 ) ;
#147 = EDGE_CURVE ( 'NONE', #44, #3, #188, .T. ) ;
#148 = LOCAL_TIME ( 9, 35, 9.000000000000000000, #297 ) ;
#149 = CYLINDRICAL_SURFACE ( 'NONE', #274, 6.349999999999999645 ) ;
#150 = ADVANCED_FACE ( 'NONE', ( #232, #335 ), #53, .F. ) ;
#151 = PERSON_AND_ORGANIZATION ( #325, #132 ) ;
#152 = CIRCLE ( 'NONE', #329, 12.69999999999999929 ) ;
#153 = MANIFOLD_SOLID_BREP ( 'Ðý×', #312 ) ;
#154 = APPROVAL_DATE_TIME ( #226, #236 ) ;
#155 = VERTEX_POINT ( 'NONE', #279 ) ;
#156 = VERTEX_POINT ( 'NONE', #51 ) ;
#157 = VECTOR ( 'NONE', #192, 1000.000000000000000 ) ;
#158 = COORDINATED_UNIVERSAL_TIME_OFFSET ( 8, 0, .AHEAD. ) ;
#159 = CC_DESIGN_SECURITY_CLASSIFICATION ( #138, ( #221 ) ) ;
#160 = FACE_OUTER_BOUND ( 'NONE', #224, .T. ) ;
#161 = DIRECTION ( 'NONE',  ( -0.000000000000000000, 0.000000000000000000, 1.000000000000000000 ) ) ;
#162 = AXIS2_PLACEMENT_3D ( 'NONE', #197, #63, #218 ) ;
#163 = CARTESIAN_POINT ( 'NONE',  ( 3.000000000000000888, 0.000000000000000000, 6.349999999999999645 ) ) ;
#164 = CARTESIAN_POINT ( 'NONE',  ( -3.000000000000000000, 0.000000000000000000, 0.000000000000000000 ) ) ;
#165 = ADVANCED_FACE ( 'NONE', ( #256 ), #233, .F. ) ;
#166 = DIRECTION ( 'NONE',  ( -1.000000000000000000, -0.000000000000000000, -0.000000000000000000 ) ) ;
#167 = CARTESIAN_POINT ( 'NONE',  ( -1.614212418857619014, 0.000000000000000000, 0.000000000000000000 ) ) ;
#168 = EDGE_CURVE ( 'NONE', #253, #202, #28, .T. ) ;
#169 = LINE ( 'NONE', #144, #61 ) ;
#170 = CARTESIAN_POINT ( 'NONE',  ( -1.500000000000000444, 0.000000000000000000, 0.000000000000000000 ) ) ;
#171 = AXIS2_PLACEMENT_3D ( 'NONE', #208, #307, #49 ) ;
#172 = APPROVAL_PERSON_ORGANIZATION ( #20, #313, #134 ) ;
#173 =( NAMED_UNIT ( * ) PLANE_ANGLE_UNIT ( ) SI_UNIT ( $, .RADIAN. ) );
#174 = ORIENTED_EDGE ( 'NONE', *, *, #147, .T. ) ;
#175 = ORIENTED_EDGE ( 'NONE', *, *, #7, .T. ) ;
#176 = VECTOR ( 'NONE', #111, 1000.000000000000000 ) ;
#177 = PERSON_AND_ORGANIZATION ( #325, #132 ) ;
#178 = ORIENTED_EDGE ( 'NONE', *, *, #96, .T. ) ;
#179 = LOCAL_TIME ( 9, 35, 9.000000000000000000, #105 ) ;
#180 = APPROVAL_STATUS ( 'not_yet_approved' ) ;
#181 = ORIENTED_EDGE ( 'NONE', *, *, #7, .F. ) ;
#182 = CC_DESIGN_PERSON_AND_ORGANIZATION_ASSIGNMENT ( #177, #272, ( #138 ) ) ;
#183 = DIRECTION ( 'NONE',  ( 1.000000000000000000, 0.000000000000000000, 0.000000000000000000 ) ) ;
#184 = EDGE_CURVE ( 'NONE', #298, #202, #289, .T. ) ;
#185 = SHAPE_DEFINITION_REPRESENTATION ( #48, #14 ) ;
#186 = LOCAL_TIME ( 9, 35, 9.000000000000000000, #158 ) ;
#187 = DIRECTION ( 'NONE',  ( -1.000000000000000000, 0.000000000000000000, -0.000000000000000000 ) ) ;
#188 = LINE ( 'NONE', #280, #176 ) ;
#189 = DIRECTION ( 'NONE',  ( 1.000000000000000000, 0.000000000000000000, 0.000000000000000000 ) ) ;
#190 = CARTESIAN_POINT ( 'NONE',  ( -3.000000000000000000, 6.349999999999999645, 0.000000000000000000 ) ) ;
#191 = DIRECTION ( 'NONE',  ( -1.000000000000000000, -0.000000000000000000, -0.000000000000000000 ) ) ;
#192 = DIRECTION ( 'NONE',  ( -1.000000000000000000, -0.000000000000000000, -0.000000000000000000 ) ) ;
#193 = FACE_OUTER_BOUND ( 'NONE', #72, .T. ) ;
#194 = EDGE_CURVE ( 'NONE', #155, #230, #264, .T. ) ;
#195 = CARTESIAN_POINT ( 'NONE',  ( -1.614212418857619014, 0.000000000000000000, 0.000000000000000000 ) ) ;
#196 = EDGE_CURVE ( 'NONE', #17, #253, #88, .T. ) ;
#197 = CARTESIAN_POINT ( 'NONE',  ( -2.999999999999999556, 0.000000000000000000, 0.000000000000000000 ) ) ;
#198 = EDGE_CURVE ( 'NONE', #202, #253, #4, .T. ) ;
#199 = EDGE_LOOP ( 'NONE', ( #270, #300 ) ) ;
#200 = APPROVAL_PERSON_ORGANIZATION ( #331, #236, #127 ) ;
#201 = APPLICATION_PROTOCOL_DEFINITION ( 'international standard', 'config_control_design', 1994, #334 ) ;
#202 = VERTEX_POINT ( 'NONE', #58 ) ;
#203 = AXIS2_PLACEMENT_3D ( 'NONE', #106, #133, #27 ) ;
#204 = APPROVAL_STATUS ( 'not_yet_approved' ) ;
#205 = AXIS2_PLACEMENT_3D ( 'NONE', #129, #45, #22 ) ;
#206 = PERSON_AND_ORGANIZATION ( #325, #132 ) ;
#207 = ORIENTED_EDGE ( 'NONE', *, *, #319, .T. ) ;
#208 = CARTESIAN_POINT ( 'NONE',  ( 3.000000000000000888, 0.000000000000000000, 0.000000000000000000 ) ) ;
#209 = AXIS2_PLACEMENT_3D ( 'NONE', #291, #116, #285 ) ;
#210 = CARTESIAN_POINT ( 'NONE',  ( 1.500000000000000888, 0.000000000000000000, 6.349999999999999645 ) ) ;
#211 = DIRECTION ( 'NONE',  ( -1.000000000000000000, 0.000000000000000000, -0.000000000000000000 ) ) ;
#212 = CYLINDRICAL_SURFACE ( 'NONE', #281, 12.69999999999999929 ) ;
#213 = AXIS2_PLACEMENT_3D ( 'NONE', #310, #234, #2 ) ;
#214 = ORIENTED_EDGE ( 'NONE', *, *, #56, .T. ) ;
#215 = CARTESIAN_POINT ( 'NONE',  ( -1.614212418857619014, 0.000000000000000000, 0.000000000000000000 ) ) ;
#216 = EDGE_CURVE ( 'NONE', #298, #17, #124, .T. ) ;
#217 = DIRECTION ( 'NONE',  ( 0.000000000000000000, 0.000000000000000000, 1.000000000000000000 ) ) ;
#218 = DIRECTION ( 'NONE',  ( 0.000000000000000000, 0.000000000000000000, 1.000000000000000000 ) ) ;
#219 = ADVANCED_FACE ( 'NONE', ( #193 ), #316, .F. ) ;
#220 = CARTESIAN_POINT ( 'NONE',  ( -1.614212418857619014, 0.000000000000000000, 6.349999999999999645 ) ) ;
#221 = PRODUCT_DEFINITION_FORMATION_WITH_SPECIFIED_SOURCE ( 'ANY', '', #82, .NOT_KNOWN. ) ;
#222 = CARTESIAN_POINT ( 'NONE',  ( 3.000000000000000000, 0.000000000000000000, 0.000000000000000000 ) ) ;
#223 = EDGE_CURVE ( 'NONE', #3, #21, #247, .T. ) ;
#224 = EDGE_LOOP ( 'NONE', ( #29, #296, #267, #55 ) ) ;
#225 = ORIENTED_EDGE ( 'NONE', *, *, #81, .T. ) ;
#226 = DATE_AND_TIME ( #95, #75 ) ;
#227 = ADVANCED_FACE ( 'NONE', ( #265 ), #146, .F. ) ;
#228 = VERTEX_POINT ( 'NONE', #32 ) ;
#229 = APPROVAL_STATUS ( 'not_yet_approved' ) ;
#230 = VERTEX_POINT ( 'NONE', #37 ) ;
#231 = DIRECTION ( 'NONE',  ( 1.000000000000000000, 0.000000000000000000, 0.000000000000000000 ) ) ;
#232 = FACE_OUTER_BOUND ( 'NONE', #13, .T. ) ;
#233 = PLANE ( 'NONE',  #271 ) ;
#234 = DIRECTION ( 'NONE',  ( -1.000000000000000000, -0.000000000000000000, -0.000000000000000000 ) ) ;
#235 = FACE_OUTER_BOUND ( 'NONE', #246, .T. ) ;
#236 = APPROVAL ( #204, 'UNSPECIFIED' ) ;
#237 = CARTESIAN_POINT ( 'NONE',  ( 3.000000000000000888, 7.776507174585692163E-16, -6.349999999999999645 ) ) ;
#238 = DIRECTION ( 'NONE',  ( 0.000000000000000000, 0.000000000000000000, 1.000000000000000000 ) ) ;
#239 = CIRCLE ( 'NONE', #84, 12.69999999999999929 ) ;
#240 = DIRECTION ( 'NONE',  ( -1.000000000000000000, -0.000000000000000000, -0.000000000000000000 ) ) ;
#241 = AXIS2_PLACEMENT_3D ( 'NONE', #190, #189, #57 ) ;
#242 = DIRECTION ( 'NONE',  ( 0.000000000000000000, 0.000000000000000000, 1.000000000000000000 ) ) ;
#243 = EDGE_CURVE ( 'NONE', #156, #230, #152, .T. ) ;
#244 = DIRECTION ( 'NONE',  ( -1.000000000000000000, -0.000000000000000000, -0.000000000000000000 ) ) ;
#245 = PERSON_AND_ORGANIZATION ( #325, #132 ) ;
#246 = EDGE_LOOP ( 'NONE', ( #181, #311, #207, #249 ) ) ;
#247 = CIRCLE ( 'NONE', #145, 6.349999999999999645 ) ;
#248 = MECHANICAL_CONTEXT ( 'NONE', #104, 'mechanical' ) ;
#249 = ORIENTED_EDGE ( 'NONE', *, *, #147, .F. ) ;
#250 = ADVANCED_FACE ( 'NONE', ( #263 ), #33, .T. ) ;
#251 = DATE_AND_TIME ( #301, #295 ) ;
#252 = ORIENTED_EDGE ( 'NONE', *, *, #198, .T. ) ;
#253 = VERTEX_POINT ( 'NONE', #120 ) ;
#254 = CC_DESIGN_PERSON_AND_ORGANIZATION_ASSIGNMENT ( #18, #293, ( #82 ) ) ;
#255 = DIRECTION ( 'NONE',  ( 0.000000000000000000, 0.000000000000000000, -1.000000000000000000 ) ) ;
#256 = FACE_OUTER_BOUND ( 'NONE', #199, .T. ) ;
#257 = FACE_BOUND ( 'NONE', #5, .T. ) ;
#258 = AXIS2_PLACEMENT_3D ( 'NONE', #68, #268, #231 ) ;
#259 = DIRECTION ( 'NONE',  ( -1.000000000000000000, -0.000000000000000000, -0.000000000000000000 ) ) ;
#260 = UNCERTAINTY_MEASURE_WITH_UNIT (LENGTH_MEASURE( 1.000000000000000082E-05 ), #328, 'distance_accuracy_value', 'NONE');
#261 = DIRECTION ( 'NONE',  ( -1.000000000000000000, -0.000000000000000000, -0.000000000000000000 ) ) ;
#262 = DIRECTION ( 'NONE',  ( 0.000000000000000000, 0.000000000000000000, 1.000000000000000000 ) ) ;
#263 = FACE_OUTER_BOUND ( 'NONE', #42, .T. ) ;
#264 = LINE ( 'NONE', #35, #157 ) ;
#265 = FACE_OUTER_BOUND ( 'NONE', #273, .T. ) ;
#266 = DIRECTION ( 'NONE',  ( -1.000000000000000000, -0.000000000000000000, -0.000000000000000000 ) ) ;
#267 = ORIENTED_EDGE ( 'NONE', *, *, #96, .F. ) ;
#268 = DIRECTION ( 'NONE',  ( 0.000000000000000000, 0.000000000000000000, 1.000000000000000000 ) ) ;
#269 = ORIENTED_EDGE ( 'NONE', *, *, #81, .F. ) ;
#270 = ORIENTED_EDGE ( 'NONE', *, *, #223, .F. ) ;
#271 = AXIS2_PLACEMENT_3D ( 'NONE', #108, #211, #161 ) ;
#272 = PERSON_AND_ORGANIZATION_ROLE ( 'classification_officer' ) ;
#273 = EDGE_LOOP ( 'NONE', ( #302, #130 ) ) ;
#274 = AXIS2_PLACEMENT_3D ( 'NONE', #320, #240, #238 ) ;
#275 = ORIENTED_EDGE ( 'NONE', *, *, #294, .F. ) ;
#276 = CALENDAR_DATE ( 2020, 24, 12 ) ;
#277 = CIRCLE ( 'NONE', #107, 6.349999999999999645 ) ;
#278 = FACE_OUTER_BOUND ( 'NONE', #102, .T. ) ;
#279 = CARTESIAN_POINT ( 'NONE',  ( 3.000000000000000000, 0.000000000000000000, 12.69999999999999929 ) ) ;
#280 = CARTESIAN_POINT ( 'NONE',  ( -1.614212418857619014, 0.000000000000000000, 6.349999999999999645 ) ) ;
#281 = AXIS2_PLACEMENT_3D ( 'NONE', #79, #31, #282 ) ;
#282 = DIRECTION ( 'NONE',  ( 0.000000000000000000, 0.000000000000000000, 1.000000000000000000 ) ) ;
#283 = EDGE_CURVE ( 'NONE', #155, #228, #239, .T. ) ;
#284 = CARTESIAN_POINT ( 'NONE',  ( -1.500000000000000444, 7.776507174585692163E-16, -6.349999999999999645 ) ) ;
#285 = DIRECTION ( 'NONE',  ( 0.000000000000000000, 0.000000000000000000, -1.000000000000000000 ) ) ;
#286 = DIRECTION ( 'NONE',  ( -1.000000000000000000, -0.000000000000000000, -0.000000000000000000 ) ) ;
#287 = FACE_OUTER_BOUND ( 'NONE', #125, .T. ) ;
#288 = CC_DESIGN_APPROVAL ( #313, ( #138 ) ) ;
#289 = LINE ( 'NONE', #220, #71 ) ;
#290 = ADVANCED_FACE ( 'NONE', ( #287 ), #149, .F. ) ;
#291 = CARTESIAN_POINT ( 'NONE',  ( -1.500000000000000444, 6.349999999999999645, 0.000000000000000000 ) ) ;
#292 = AXIS2_PLACEMENT_3D ( 'NONE', #140, #259, #30 ) ;
#293 = PERSON_AND_ORGANIZATION_ROLE ( 'design_owner' ) ;
#294 = EDGE_CURVE ( 'NONE', #97, #21, #87, .T. ) ;
#295 = LOCAL_TIME ( 9, 35, 9.000000000000000000, #43 ) ;
#296 = ORIENTED_EDGE ( 'NONE', *, *, #308, .T. ) ;
#297 = COORDINATED_UNIVERSAL_TIME_OFFSET ( 8, 0, .AHEAD. ) ;
#298 = VERTEX_POINT ( 'NONE', #62 ) ;
#299 = PERSON_AND_ORGANIZATION_ROLE ( 'creator' ) ;
#300 = ORIENTED_EDGE ( 'NONE', *, *, #319, .F. ) ;
#301 = CALENDAR_DATE ( 2020, 24, 12 ) ;
#302 = ORIENTED_EDGE ( 'NONE', *, *, #216, .F. ) ;
#303 = ORIENTED_EDGE ( 'NONE', *, *, #184, .F. ) ;
#304 = DATE_AND_TIME ( #309, #179 ) ;
#305 = DIRECTION ( 'NONE',  ( 0.000000000000000000, 0.000000000000000000, 1.000000000000000000 ) ) ;
#306 = VECTOR ( 'NONE', #286, 1000.000000000000000 ) ;
#307 = DIRECTION ( 'NONE',  ( -1.000000000000000000, -0.000000000000000000, -0.000000000000000000 ) ) ;
#308 = EDGE_CURVE ( 'NONE', #228, #156, #169, .T. ) ;
#309 = CALENDAR_DATE ( 2020, 24, 12 ) ;
#310 = CARTESIAN_POINT ( 'NONE',  ( -2.999999999999999556, 0.000000000000000000, 0.000000000000000000 ) ) ;
#311 = ORIENTED_EDGE ( 'NONE', *, *, #294, .T. ) ;
#312 = CLOSED_SHELL ( 'NONE', ( #34, #290, #112, #165, #219, #317, #23, #250, #150, #227 ) ) ;
#313 = APPROVAL ( #180, 'UNSPECIFIED' ) ;
#314 = CC_DESIGN_APPROVAL ( #236, ( #121 ) ) ;
#315 = DIRECTION ( 'NONE',  ( -1.000000000000000000, -0.000000000000000000, -0.000000000000000000 ) ) ;
#316 = CYLINDRICAL_SURFACE ( 'NONE', #59, 6.349999999999999645 ) ;
#317 = ADVANCED_FACE ( 'NONE', ( #65 ), #9, .F. ) ;
#318 = AXIS2_PLACEMENT_3D ( 'NONE', #215, #166, #262 ) ;
#319 = EDGE_CURVE ( 'NONE', #21, #3, #11, .T. ) ;
#320 = CARTESIAN_POINT ( 'NONE',  ( -1.614212418857619014, 0.000000000000000000, 0.000000000000000000 ) ) ;
#321 = COORDINATED_UNIVERSAL_TIME_OFFSET ( 8, 0, .AHEAD. ) ;
#322 = ORIENTED_EDGE ( 'NONE', *, *, #308, .F. ) ;
#323 = APPROVAL_DATE_TIME ( #101, #136 ) ;
#324 = ORIENTED_EDGE ( 'NONE', *, *, #243, .F. ) ;
#325 = PERSON ( 'UNSPECIFIED', 'UNSPECIFIED', 'UNSPECIFIED', ('UNSPECIFIED'), ('UNSPECIFIED'), ('UNSPECIFIED') ) ;
#326 = APPROVAL_ROLE ( '' ) ;
#327 = ORIENTED_EDGE ( 'NONE', *, *, #196, .T. ) ;
#328 =( LENGTH_UNIT ( ) NAMED_UNIT ( * ) SI_UNIT ( .MILLI., .METRE. ) );
#329 = AXIS2_PLACEMENT_3D ( 'NONE', #142, #244, #36 ) ;
#330 = ORIENTED_EDGE ( 'NONE', *, *, #243, .T. ) ;
#331 = PERSON_AND_ORGANIZATION ( #325, #132 ) ;
#332 = APPROVAL_PERSON_ORGANIZATION ( #245, #136, #326 ) ;
#333 = CC_DESIGN_DATE_AND_TIME_ASSIGNMENT ( #47, #66, ( #121 ) ) ;
#334 = APPLICATION_CONTEXT ( 'configuration controlled 3d designs of mechanical parts and assemblies' ) ;
#335 = FACE_BOUND ( 'NONE', #128, .T. ) ;
ENDSEC;
END-ISO-10303-21;
